TIDAK MENEMUKAN KORD/LIRIK YANG ANDA CARI???
silahkan request disini

Five Minutes - Salah apa [Intro-Interlude Tab]

Author : udit (www.chordfrenzy.com)

intro

e|---------------------------------------|
B|--10-10-9-10-10-10/12-10-9-10-10-9-----|
G|-----------------------------------11--|
D|---------------------------------------|
A|---------------------------------------|
E|---------------------------------------|

e|----------------------------------------------------------------------------
B|-----9-9/10-10-12-12/14-14-14/17-17-15-14-10-12/14-14-14-14-14-14-14-14-14--
G|--11------------------------------------------------------------------------
D|----------------------------------------------------------------------------
A|----------------------------------------------------------------------------
E|----------------------------------------------------------------------------

-------------------------|
-14\10-10-10-10-10-10----|
-------------------------|
-------------------------|
-------------------------|
-------------------------|


interlude (solo)

e|--------------------------------------------|
B|--/10-10-9-10-9-10-9-10-10/12-9-9----9------|
G|----------------------------------11---11-6-|
D|--------------------------------------------|
A|--------------------------------------------|
E|--------------------------------------------|

e|--------------------------------------|
B|--/10-9-10-9-10-9-10-9-10/12-----14~--|
G|-----------------------------11~------|
D|--------------------------------------|
A|--------------------------------------|
E|--------------------------------------|

e|---------------------|
B|-----10----10/12-9~--|
G|--11----11-----------|
D|---------------------|
A|---------------------|
E|---------------------|

0 comments:

Poskan Komentar