TIDAK MENEMUKAN KORD/LIRIK YANG ANDA CARI???
silahkan request disini

Nicky Astria - Bias Sinar

#----------------------------------PLEASE NOTE--------------------------------#
#This file is the author's own work and represents their interpretation of the#
#song. You may only use this file for private study, scholarship, or research.#
#-----------------------------------------------------------------------------#


From: Haqqo Sabahtulloh (haqqo_az_zahra@hotmail.com)
Subject: Nicky Astria/Bias Sinar.tab
Tablature : Havit Hizboel(haqqo_az_zahra@hotmail.com)

Bias Sinar_Nicky Astria

Intro : F#5 E5


Verse
F#m5        E5
Ku duduk sendiri
      A5    B5         D5 C#5
Ku terpaku digelapnya malam
F#m5       E5
Ku tatap kedepan
   A5         D5           E5
Semakin gelap celah kehidupan

F#m5      E5          A5 F#5
Begitu banyak rintangan
     D5           E5         C#5
Yang menghalangi panah mataku
F#m5  E5       A5 F#5
Tiada lagi cahaya
         D5                C#5
Yang kan terangi mata hatiku


Reff

Bm5 E5  C#m5 D5
Bias...Sinar
     G#m5           C#5  F#m5 G# A
Dapatkah kau datang kembali   lagi
Bm5 E5  C#5 D5
Bias...Sinar
     G#5            C#5   D5   E5         F#5
Dan terangi kembali hati ini dari kegelapan


F#m5        E5
Dan dinginnya malam
      A5    B5         D5 C#5
Membangkitkan kenangan yang tlah tak ada
F#m5       E5
Seakan ku rasa
   A5         D5           E5
Belai lembutmu menghangatkan jiwa

F#m5      E5          A5 F#5
Namun semuanya tlah musnah
      D5           E5         C#5
Larut bersama dinginnya malam
F#m5  E5       A5 F#5
Tiada lagi terangmu
         D5                C#5
Yang menyinari lubuk hatiku

Solo:
Bm5 E5  C#m5 D5
G#m5  C#5  F#m5

-------------------------------------------------------------------|
------------------//17br^-17br~~~--12-14-15~~-14~-12^-12p10-12br---|
---//19br^^---13^--------------------------------------------------|
-------------------------------------------------------------------|
-------------------------------------------------------------------|
-------------------------------------------------------------------|
fast pick
--------15------13--13p11p10----10-13br~~------|
-----13------11--------------13----------------|
---12------10----------------------------------|
-----------------------------------------------|
-----------------------------------------------|
-----------------------------------------------|
Reff

Bm5 E5  C#m5 D5
Bias...Sinar
     G#m5           C#5  F#m5 G# A
Dapatkah kau datang kembali   lagi
Bm5 E5  C#5 D5
Bias...Sinar
     G#5            C#5   D5   E5         F#5
Dan terangi kembali hati ini dari kegelapan

0 comments:

Poskan Komentar